ISO-10303-21;
HEADER;
FILE_DESCRIPTION (( 'STEP AP203' ),
    '1' );
FILE_NAME ('BK7-LPBSC-25.4-473.STEP',
    '2020-12-22T03:14:36',
    ( '' ),
    ( '' ),
    'SwSTEP 2.0',
    'SolidWorks 2020',
    '' );
FILE_SCHEMA (( 'CONFIG_CONTROL_DESIGN' ));
ENDSEC;

DATA;
#1 =( NAMED_UNIT ( * ) SI_UNIT ( $, .STERADIAN. ) SOLID_ANGLE_UNIT ( ) );
#2 = APPROVAL_ROLE ( '' ) ;
#3 = VERTEX_POINT ( 'NONE', #58 ) ;
#4 = PERSON_AND_ORGANIZATION ( #36, #300 ) ;
#5 = ORIENTED_EDGE ( 'NONE', *, *, #301, .F. ) ;
#6 = ADVANCED_FACE ( 'NONE', ( #293 ), #176, .F. ) ;
#7 = APPROVAL_DATE_TIME ( #170, #96 ) ;
#8 = PLANE ( 'NONE',  #169 ) ;
#9 = VECTOR ( 'NONE', #162, 1000.000000000000114 ) ;
#10 = DIRECTION ( 'NONE',  ( 0.000000000000000000, 0.000000000000000000, 1.000000000000000000 ) ) ;
#11 = CC_DESIGN_SECURITY_CLASSIFICATION ( #46, ( #141 ) ) ;
#12 = VERTEX_POINT ( 'NONE', #128 ) ;
#13 = ADVANCED_FACE ( 'NONE', ( #30 ), #8, .F. ) ;
#14 = ORIENTED_EDGE ( 'NONE', *, *, #76, .F. ) ;
#15 = EDGE_CURVE ( 'NONE', #40, #156, #145, .T. ) ;
#16 = CARTESIAN_POINT ( 'NONE',  ( -12.69999999999999751, -12.69999999999999929, 12.69999999999999929 ) ) ;
#17 = VECTOR ( 'NONE', #243, 1000.000000000000000 ) ;
#18 = LINE ( 'NONE', #234, #244 ) ;
#19 = LINE ( 'NONE', #64, #61 ) ;
#20 = CC_DESIGN_PERSON_AND_ORGANIZATION_ASSIGNMENT ( #146, #104, ( #140 ) ) ;
#21 = VECTOR ( 'NONE', #48, 1000.000000000000000 ) ;
#22 = CC_DESIGN_APPROVAL ( #208, ( #141 ) ) ;
#23 = PLANE ( 'NONE',  #238 ) ;
#24 = PRODUCT_DEFINITION ( 'UNKNOWN', '', #141, #204 ) ;
#25 = PERSON_AND_ORGANIZATION ( #36, #300 ) ;
#26 = DATE_TIME_ROLE ( 'creation_date' ) ;
#27 = PLANE ( 'NONE',  #160 ) ;
#28 = COORDINATED_UNIVERSAL_TIME_OFFSET ( 8, 0, .AHEAD. ) ;
#29 = APPROVAL_DATE_TIME ( #265, #53 ) ;
#30 = FACE_OUTER_BOUND ( 'NONE', #266, .T. ) ;
#31 = ORIENTED_EDGE ( 'NONE', *, *, #256, .F. ) ;
#32 = EDGE_LOOP ( 'NONE', ( #185, #271, #222 ) ) ;
#33 = VECTOR ( 'NONE', #132, 1000.000000000000000 ) ;
#34 = PLANE ( 'NONE',  #155 ) ;
#35 = VECTOR ( 'NONE', #189, 999.9999999999998863 ) ;
#36 = PERSON ( 'UNSPECIFIED', 'UNSPECIFIED', 'UNSPECIFIED', ('UNSPECIFIED'), ('UNSPECIFIED'), ('UNSPECIFIED') ) ;
#37 = DIRECTION ( 'NONE',  ( -2.220446049250312588E-16, 1.000000000000000000, 0.000000000000000000 ) ) ;
#38 = CARTESIAN_POINT ( 'NONE',  ( -12.70000000000000284, 12.70000000000000284, -12.69999999999999929 ) ) ;
#39 = EDGE_CURVE ( 'NONE', #233, #171, #203, .T. ) ;
#40 = VERTEX_POINT ( 'NONE', #248 ) ;
#41 = ORIENTED_EDGE ( 'NONE', *, *, #319, .T. ) ;
#42 = ADVANCED_FACE ( 'NONE', ( #154 ), #27, .F. ) ;
#43 = DIRECTION ( 'NONE',  ( -2.220446049250312588E-16, 1.000000000000000000, 0.000000000000000000 ) ) ;
#44 = PLANE ( 'NONE',  #274 ) ;
#45 = DIRECTION ( 'NONE',  ( 0.000000000000000000, 0.000000000000000000, -1.000000000000000000 ) ) ;
#46 = SECURITY_CLASSIFICATION ( '', '', #101 ) ;
#47 = ADVANCED_FACE ( 'NONE', ( #178 ), #75, .T. ) ;
#48 = DIRECTION ( 'NONE',  ( -0.000000000000000000, 1.000000000000000000, -0.000000000000000000 ) ) ;
#49 = LINE ( 'NONE', #190, #35 ) ;
#50 = ADVANCED_FACE ( 'NONE', ( #227 ), #34, .F. ) ;
#51 = SHAPE_DEFINITION_REPRESENTATION ( #94, #289 ) ;
#52 = COORDINATED_UNIVERSAL_TIME_OFFSET ( 8, 0, .AHEAD. ) ;
#53 = APPROVAL ( #165, 'UNSPECIFIED' ) ;
#54 = COORDINATED_UNIVERSAL_TIME_OFFSET ( 8, 0, .AHEAD. ) ;
#55 = DIRECTION ( 'NONE',  ( 0.7071067811865474617, 0.7071067811865474617, 0.000000000000000000 ) ) ;
#56 = CARTESIAN_POINT ( 'NONE',  ( 12.69999999999999929, 12.69999999999999929, -12.69999999999999929 ) ) ;
#57 = VECTOR ( 'NONE', #45, 1000.000000000000000 ) ;
#58 = CARTESIAN_POINT ( 'NONE',  ( 12.69999999999999574, 12.69999999999999574, 12.69999999999999929 ) ) ;
#59 = DIRECTION ( 'NONE',  ( 2.220446049250312588E-16, -1.000000000000000000, 0.000000000000000000 ) ) ;
#60 = ORIENTED_EDGE ( 'NONE', *, *, #127, .T. ) ;
#61 = VECTOR ( 'NONE', #157, 1000.000000000000000 ) ;
#62 = CC_DESIGN_APPROVAL ( #53, ( #46 ) ) ;
#63 = APPROVAL_PERSON_ORGANIZATION ( #249, #96, #2 ) ;
#64 = CARTESIAN_POINT ( 'NONE',  ( -12.69999999999999751, -12.69999999999999929, 12.69999999999999929 ) ) ;
#65 = ORIENTED_EDGE ( 'NONE', *, *, #39, .T. ) ;
#66 = CARTESIAN_POINT ( 'NONE',  ( 12.69999999999999929, -12.69999999999999929, 12.69999999999999929 ) ) ;
#67 = CARTESIAN_POINT ( 'NONE',  ( -12.69999999999999574, -12.69999999999999396, -12.69999999999999929 ) ) ;
#68 = MANIFOLD_SOLID_BREP ( 'Í¹Ì¨-À', #130 ) ;
#69 = APPLICATION_CONTEXT ( 'configuration controlled 3d designs of mechanical parts and assemblies' ) ;
#70 = CARTESIAN_POINT ( 'NONE',  ( 12.69999999999999929, 12.69999999999999929, -12.69999999999999929 ) ) ;
#71 = CALENDAR_DATE ( 2020, 22, 12 ) ;
#72 = CARTESIAN_POINT ( 'NONE',  ( 12.69999999999999574, 12.69999999999999574, 12.69999999999999929 ) ) ;
#73 = DATE_AND_TIME ( #71, #85 ) ;
#74 = AXIS2_PLACEMENT_3D ( 'NONE', #163, #261, #215 ) ;
#75 = PLANE ( 'NONE',  #134 ) ;
#76 = EDGE_CURVE ( 'NONE', #156, #308, #196, .T. ) ;
#77 = CARTESIAN_POINT ( 'NONE',  ( 12.69999999999999574, 12.69999999999999574, -12.69999999999999929 ) ) ;
#78 = APPLICATION_CONTEXT ( 'configuration controlled 3d designs of mechanical parts and assemblies' ) ;
#79 = VECTOR ( 'NONE', #184, 1000.000000000000000 ) ;
#80 = VERTEX_POINT ( 'NONE', #56 ) ;
#81 = DIRECTION ( 'NONE',  ( 1.000000000000000000, 0.000000000000000000, 0.000000000000000000 ) ) ;
#82 = EDGE_LOOP ( 'NONE', ( #207, #296, #131 ) ) ;
#83 = DIRECTION ( 'NONE',  ( 1.000000000000000000, -2.220446049250312588E-16, 0.000000000000000000 ) ) ;
#84 = DIRECTION ( 'NONE',  ( 1.000000000000000000, 0.000000000000000000, 0.000000000000000000 ) ) ;
#85 = LOCAL_TIME ( 11, 14, 36.00000000000000000, #144 ) ;
#86 = ORIENTED_EDGE ( 'NONE', *, *, #313, .F. ) ;
#87 = CARTESIAN_POINT ( 'NONE',  ( 12.69999999999999574, 12.69999999999999574, 12.69999999999999929 ) ) ;
#88 = EDGE_CURVE ( 'NONE', #40, #3, #255, .T. ) ;
#89 = EDGE_LOOP ( 'NONE', ( #113, #158, #231 ) ) ;
#90 = FACE_OUTER_BOUND ( 'NONE', #32, .T. ) ;
#91 = PRODUCT_RELATED_PRODUCT_CATEGORY ( 'detail', '', ( #140 ) ) ;
#92 = CARTESIAN_POINT ( 'NONE',  ( 12.69999999999999929, 12.69999999999999929, 12.69999999999999929 ) ) ;
#93 = LINE ( 'NONE', #284, #316 ) ;
#94 = PRODUCT_DEFINITION_SHAPE ( 'NONE', 'NONE',  #24 ) ;
#95 = CARTESIAN_POINT ( 'NONE',  ( 12.69999999999999574, 12.69999999999999574, -12.69999999999999929 ) ) ;
#96 = APPROVAL ( #123, 'UNSPECIFIED' ) ;
#97 = VECTOR ( 'NONE', #198, 1000.000000000000000 ) ;
#98 = VECTOR ( 'NONE', #318, 1000.000000000000000 ) ;
#99 = LINE ( 'NONE', #245, #98 ) ;
#100 = EDGE_CURVE ( 'NONE', #109, #171, #283, .T. ) ;
#101 = SECURITY_CLASSIFICATION_LEVEL ( 'unclassified' ) ;
#102 = CC_DESIGN_DATE_AND_TIME_ASSIGNMENT ( #73, #106, ( #46 ) ) ;
#103 = AXIS2_PLACEMENT_3D ( 'NONE', #281, #232, #84 ) ;
#104 = PERSON_AND_ORGANIZATION_ROLE ( 'design_owner' ) ;
#105 = CC_DESIGN_APPROVAL ( #96, ( #24 ) ) ;
#106 = DATE_TIME_ROLE ( 'classification_date' ) ;
#107 = CARTESIAN_POINT ( 'NONE',  ( 0.000000000000000000, 0.000000000000000000, -12.69999999999999929 ) ) ;
#108 = EDGE_CURVE ( 'NONE', #202, #156, #260, .T. ) ;
#109 = VERTEX_POINT ( 'NONE', #66 ) ;
#110 = CARTESIAN_POINT ( 'NONE',  ( -12.70000000000000284, 12.70000000000000284, 12.69999999999999929 ) ) ;
#111 = ORIENTED_EDGE ( 'NONE', *, *, #100, .F. ) ;
#112 = CC_DESIGN_DATE_AND_TIME_ASSIGNMENT ( #297, #26, ( #24 ) ) ;
#113 = ORIENTED_EDGE ( 'NONE', *, *, #299, .F. ) ;
#114 = CARTESIAN_POINT ( 'NONE',  ( 12.69999999999999929, -12.69999999999999929, -12.69999999999999929 ) ) ;
#115 = DIRECTION ( 'NONE',  ( 0.000000000000000000, 1.000000000000000000, 0.000000000000000000 ) ) ;
#116 = LINE ( 'NONE', #279, #9 ) ;
#117 =( NAMED_UNIT ( * ) PLANE_ANGLE_UNIT ( ) SI_UNIT ( $, .RADIAN. ) );
#118 = CARTESIAN_POINT ( 'NONE',  ( -12.69999999999999574, -12.69999999999999396, 12.69999999999999929 ) ) ;
#119 = PLANE ( 'NONE',  #149 ) ;
#120 = ADVANCED_FACE ( 'NONE', ( #90 ), #136, .F. ) ;
#121 = VECTOR ( 'NONE', #290, 999.9999999999998863 ) ;
#122 = APPROVAL_ROLE ( '' ) ;
#123 = APPROVAL_STATUS ( 'not_yet_approved' ) ;
#124 = CALENDAR_DATE ( 2020, 22, 12 ) ;
#125 = PERSON_AND_ORGANIZATION ( #36, #300 ) ;
#126 = DIRECTION ( 'NONE',  ( -0.000000000000000000, 0.000000000000000000, 1.000000000000000000 ) ) ;
#127 = EDGE_CURVE ( 'NONE', #12, #40, #182, .T. ) ;
#128 = CARTESIAN_POINT ( 'NONE',  ( -12.69999999999999574, -12.69999999999999396, 12.69999999999999929 ) ) ;
#129 = EDGE_CURVE ( 'NONE', #150, #259, #18, .T. ) ;
#130 = CLOSED_SHELL ( 'NONE', ( #42, #166, #268, #47, #120 ) ) ;
#131 = ORIENTED_EDGE ( 'NONE', *, *, #301, .T. ) ;
#132 = DIRECTION ( 'NONE',  ( 1.000000000000000000, 0.000000000000000000, 0.000000000000000000 ) ) ;
#133 = ORIENTED_EDGE ( 'NONE', *, *, #129, .F. ) ;
#134 = AXIS2_PLACEMENT_3D ( 'NONE', #173, #126, #81 ) ;
#135 = ORIENTED_EDGE ( 'NONE', *, *, #76, .T. ) ;
#136 = PLANE ( 'NONE',  #103 ) ;
#137 = LINE ( 'NONE', #72, #57 ) ;
#138 = LINE ( 'NONE', #264, #17 ) ;
#139 = LOCAL_TIME ( 11, 14, 36.00000000000000000, #246 ) ;
#140 = PRODUCT ( 'BK7-LPBSC-25.4-473', 'BK7-LPBSC-25.4-473', '', ( #194 ) ) ;
#141 = PRODUCT_DEFINITION_FORMATION_WITH_SPECIFIED_SOURCE ( 'ANY', '', #140, .NOT_KNOWN. ) ;
#142 = DIRECTION ( 'NONE',  ( 0.000000000000000000, 0.000000000000000000, 1.000000000000000000 ) ) ;
#143 = APPLICATION_PROTOCOL_DEFINITION ( 'international standard', 'config_control_design', 1994, #78 ) ;
#144 = COORDINATED_UNIVERSAL_TIME_OFFSET ( 8, 0, .AHEAD. ) ;
#145 = LINE ( 'NONE', #110, #97 ) ;
#146 = PERSON_AND_ORGANIZATION ( #36, #300 ) ;
#147 = CALENDAR_DATE ( 2020, 22, 12 ) ;
#148 = DIRECTION ( 'NONE',  ( 0.7071067811865475727, -0.7071067811865475727, 0.000000000000000000 ) ) ;
#149 = AXIS2_PLACEMENT_3D ( 'NONE', #218, #164, #142 ) ;
#150 = VERTEX_POINT ( 'NONE', #315 ) ;
#151 = EDGE_CURVE ( 'NONE', #80, #233, #116, .T. ) ;
#152 = DIRECTION ( 'NONE',  ( -2.220446049250312588E-16, 1.000000000000000000, 0.000000000000000000 ) ) ;
#153 = ORIENTED_EDGE ( 'NONE', *, *, #299, .T. ) ;
#154 = FACE_OUTER_BOUND ( 'NONE', #229, .T. ) ;
#155 = AXIS2_PLACEMENT_3D ( 'NONE', #225, #200, #298 ) ;
#156 = VERTEX_POINT ( 'NONE', #38 ) ;
#157 = DIRECTION ( 'NONE',  ( -0.000000000000000000, -0.000000000000000000, -1.000000000000000000 ) ) ;
#158 = ORIENTED_EDGE ( 'NONE', *, *, #88, .F. ) ;
#159 = EDGE_CURVE ( 'NONE', #259, #233, #19, .T. ) ;
#160 = AXIS2_PLACEMENT_3D ( 'NONE', #252, #148, #55 ) ;
#161 = DIRECTION ( 'NONE',  ( 0.000000000000000000, 0.000000000000000000, 1.000000000000000000 ) ) ;
#162 = DIRECTION ( 'NONE',  ( -0.7071067811865474617, -0.7071067811865474617, 0.000000000000000000 ) ) ;
#163 = CARTESIAN_POINT ( 'NONE',  ( 0.000000000000000000, 0.000000000000000000, 0.000000000000000000 ) ) ;
#164 = DIRECTION ( 'NONE',  ( -1.000000000000000000, 0.000000000000000000, 0.000000000000000000 ) ) ;
#165 = APPROVAL_STATUS ( 'not_yet_approved' ) ;
#166 = ADVANCED_FACE ( 'NONE', ( #209 ), #310, .F. ) ;
#167 = CARTESIAN_POINT ( 'NONE',  ( 12.69999999999999574, 12.69999999999999574, 12.69999999999999929 ) ) ;
#168 = PERSON_AND_ORGANIZATION ( #36, #300 ) ;
#169 = AXIS2_PLACEMENT_3D ( 'NONE', #228, #59, #10 ) ;
#170 = DATE_AND_TIME ( #247, #241 ) ;
#171 = VERTEX_POINT ( 'NONE', #114 ) ;
#172 = DATE_AND_TIME ( #292, #139 ) ;
#173 = CARTESIAN_POINT ( 'NONE',  ( 0.000000000000000000, 0.000000000000000000, 12.69999999999999929 ) ) ;
#174 = ORIENTED_EDGE ( 'NONE', *, *, #15, .F. ) ;
#175 = VECTOR ( 'NONE', #258, 1000.000000000000000 ) ;
#176 = PLANE ( 'NONE',  #195 ) ;
#177 = ORIENTED_EDGE ( 'NONE', *, *, #270, .T. ) ;
#178 = FACE_OUTER_BOUND ( 'NONE', #82, .T. ) ;
#179 = EDGE_LOOP ( 'NONE', ( #254, #306, #60, #201 ) ) ;
#180 = CARTESIAN_POINT ( 'NONE',  ( -12.69999999999999574, -12.69999999999999396, 12.69999999999999929 ) ) ;
#181 = ORIENTED_EDGE ( 'NONE', *, *, #108, .T. ) ;
#182 = LINE ( 'NONE', #180, #79 ) ;
#183 = APPROVAL_PERSON_ORGANIZATION ( #168, #53, #122 ) ;
#184 = DIRECTION ( 'NONE',  ( -2.220446049250312588E-16, 1.000000000000000000, 0.000000000000000000 ) ) ;
#185 = ORIENTED_EDGE ( 'NONE', *, *, #151, .F. ) ;
#186 = FACE_OUTER_BOUND ( 'NONE', #89, .T. ) ;
#187 = AXIS2_PLACEMENT_3D ( 'NONE', #16, #115, #312 ) ;
#188 = DIRECTION ( 'NONE',  ( -0.000000000000000000, -0.000000000000000000, -1.000000000000000000 ) ) ;
#189 = DIRECTION ( 'NONE',  ( -0.7071067811865475727, -0.7071067811865475727, 0.000000000000000000 ) ) ;
#190 = CARTESIAN_POINT ( 'NONE',  ( 12.69999999999999574, 12.69999999999999574, -12.69999999999999929 ) ) ;
#191 = CC_DESIGN_PERSON_AND_ORGANIZATION_ASSIGNMENT ( #25, #291, ( #141 ) ) ;
#192 = FACE_OUTER_BOUND ( 'NONE', #305, .T. ) ;
#193 = APPLICATION_PROTOCOL_DEFINITION ( 'international standard', 'config_control_design', 1994, #69 ) ;
#194 = MECHANICAL_CONTEXT ( 'NONE', #69, 'mechanical' ) ;
#195 = AXIS2_PLACEMENT_3D ( 'NONE', #107, #250, #152 ) ;
#196 = LINE ( 'NONE', #77, #320 ) ;
#197 = APPROVAL_STATUS ( 'not_yet_approved' ) ;
#198 = DIRECTION ( 'NONE',  ( 0.000000000000000000, 0.000000000000000000, -1.000000000000000000 ) ) ;
#199 = PERSON_AND_ORGANIZATION_ROLE ( 'creator' ) ;
#200 = DIRECTION ( 'NONE',  ( -0.7071067811865475727, 0.7071067811865475727, 0.000000000000000000 ) ) ;
#201 = ORIENTED_EDGE ( 'NONE', *, *, #15, .T. ) ;
#202 = VERTEX_POINT ( 'NONE', #67 ) ;
#203 = LINE ( 'NONE', #304, #33 ) ;
#204 = DESIGN_CONTEXT ( 'detailed design', #78, 'design' ) ;
#205 = ORIENTED_EDGE ( 'NONE', *, *, #159, .F. ) ;
#206 = CARTESIAN_POINT ( 'NONE',  ( -12.69999999999999574, -12.69999999999999396, -12.69999999999999929 ) ) ;
#207 = ORIENTED_EDGE ( 'NONE', *, *, #129, .T. ) ;
#208 = APPROVAL ( #197, 'UNSPECIFIED' ) ;
#209 = FACE_OUTER_BOUND ( 'NONE', #294, .T. ) ;
#210 = ADVANCED_FACE ( 'NONE', ( #186 ), #44, .T. ) ;
#211 = ORIENTED_EDGE ( 'NONE', *, *, #236, .T. ) ;
#212 = CARTESIAN_POINT ( 'NONE',  ( -12.69999999999999751, -12.69999999999999929, -12.69999999999999929 ) ) ;
#213 = CARTESIAN_POINT ( 'NONE',  ( -12.69999999999999751, -12.69999999999999929, 12.69999999999999929 ) ) ;
#214 =( GEOMETRIC_REPRESENTATION_CONTEXT ( 3 ) GLOBAL_UNCERTAINTY_ASSIGNED_CONTEXT ( ( #314 ) ) GLOBAL_UNIT_ASSIGNED_CONTEXT ( ( #317, #117, #1 ) ) REPRESENTATION_CONTEXT ( 'NONE', 'WORKASPACE' ) );
#215 = DIRECTION ( 'NONE',  ( 1.000000000000000000, 0.000000000000000000, 0.000000000000000000 ) ) ;
#216 = CC_DESIGN_PERSON_AND_ORGANIZATION_ASSIGNMENT ( #223, #199, ( #24 ) ) ;
#217 = DIRECTION ( 'NONE',  ( 1.000000000000000000, -2.220446049250312588E-16, 0.000000000000000000 ) ) ;
#218 = CARTESIAN_POINT ( 'NONE',  ( 12.69999999999999929, 12.69999999999999929, 12.69999999999999929 ) ) ;
#219 = ORIENTED_EDGE ( 'NONE', *, *, #285, .F. ) ;
#220 = PERSON_AND_ORGANIZATION ( #36, #300 ) ;
#221 = APPROVAL_DATE_TIME ( #172, #208 ) ;
#222 = ORIENTED_EDGE ( 'NONE', *, *, #39, .F. ) ;
#223 = PERSON_AND_ORGANIZATION ( #36, #300 ) ;
#224 = PERSON_AND_ORGANIZATION_ROLE ( 'design_supplier' ) ;
#225 = CARTESIAN_POINT ( 'NONE',  ( 12.69999999999999574, 12.69999999999999574, 12.69999999999999929 ) ) ;
#226 = CC_DESIGN_PERSON_AND_ORGANIZATION_ASSIGNMENT ( #4, #224, ( #141 ) ) ;
#227 = FACE_OUTER_BOUND ( 'NONE', #280, .T. ) ;
#228 = CARTESIAN_POINT ( 'NONE',  ( 12.69999999999999574, 12.69999999999999574, 12.69999999999999929 ) ) ;
#229 = EDGE_LOOP ( 'NONE', ( #277, #205, #133, #211 ) ) ;
#230 = ORIENTED_EDGE ( 'NONE', *, *, #256, .T. ) ;
#231 = ORIENTED_EDGE ( 'NONE', *, *, #127, .F. ) ;
#232 = DIRECTION ( 'NONE',  ( -0.000000000000000000, 0.000000000000000000, 1.000000000000000000 ) ) ;
#233 = VERTEX_POINT ( 'NONE', #212 ) ;
#234 = CARTESIAN_POINT ( 'NONE',  ( 12.69999999999999929, 12.69999999999999929, 12.69999999999999929 ) ) ;
#235 = ORIENTED_EDGE ( 'NONE', *, *, #236, .F. ) ;
#236 = EDGE_CURVE ( 'NONE', #150, #80, #239, .T. ) ;
#237 = CARTESIAN_POINT ( 'NONE',  ( 12.69999999999999929, -12.69999999999999929, 12.69999999999999929 ) ) ;
#238 = AXIS2_PLACEMENT_3D ( 'NONE', #118, #217, #240 ) ;
#239 = LINE ( 'NONE', #92, #302 ) ;
#240 = DIRECTION ( 'NONE',  ( 0.000000000000000000, 0.000000000000000000, 1.000000000000000000 ) ) ;
#241 = LOCAL_TIME ( 11, 14, 36.00000000000000000, #28 ) ;
#242 = FACE_OUTER_BOUND ( 'NONE', #179, .T. ) ;
#243 = DIRECTION ( 'NONE',  ( 1.000000000000000000, 0.000000000000000000, 0.000000000000000000 ) ) ;
#244 = VECTOR ( 'NONE', #273, 1000.000000000000114 ) ;
#245 = CARTESIAN_POINT ( 'NONE',  ( 12.69999999999999929, 12.69999999999999929, 12.69999999999999929 ) ) ;
#246 = COORDINATED_UNIVERSAL_TIME_OFFSET ( 8, 0, .AHEAD. ) ;
#247 = CALENDAR_DATE ( 2020, 22, 12 ) ;
#248 = CARTESIAN_POINT ( 'NONE',  ( -12.70000000000000284, 12.70000000000000284, 12.69999999999999929 ) ) ;
#249 = PERSON_AND_ORGANIZATION ( #36, #300 ) ;
#250 = DIRECTION ( 'NONE',  ( 0.000000000000000000, 0.000000000000000000, 1.000000000000000000 ) ) ;
#251 = CC_DESIGN_PERSON_AND_ORGANIZATION_ASSIGNMENT ( #125, #267, ( #46 ) ) ;
#252 = CARTESIAN_POINT ( 'NONE',  ( 12.69999999999999929, 12.69999999999999929, 12.69999999999999929 ) ) ;
#253 = ORIENTED_EDGE ( 'NONE', *, *, #159, .T. ) ;
#254 = ORIENTED_EDGE ( 'NONE', *, *, #108, .F. ) ;
#255 = LINE ( 'NONE', #87, #262 ) ;
#256 = EDGE_CURVE ( 'NONE', #3, #308, #137, .T. ) ;
#257 = ORIENTED_EDGE ( 'NONE', *, *, #100, .T. ) ;
#258 = DIRECTION ( 'NONE',  ( -0.000000000000000000, -0.000000000000000000, -1.000000000000000000 ) ) ;
#259 = VERTEX_POINT ( 'NONE', #213 ) ;
#260 = LINE ( 'NONE', #206, #307 ) ;
#261 = DIRECTION ( 'NONE',  ( 0.000000000000000000, 0.000000000000000000, 1.000000000000000000 ) ) ;
#262 = VECTOR ( 'NONE', #83, 1000.000000000000000 ) ;
#263 = DIRECTION ( 'NONE',  ( 0.000000000000000000, 0.000000000000000000, -1.000000000000000000 ) ) ;
#264 = CARTESIAN_POINT ( 'NONE',  ( -12.69999999999999751, -12.69999999999999929, 12.69999999999999929 ) ) ;
#265 = DATE_AND_TIME ( #147, #275 ) ;
#266 = EDGE_LOOP ( 'NONE', ( #14, #174, #311, #230 ) ) ;
#267 = PERSON_AND_ORGANIZATION_ROLE ( 'classification_officer' ) ;
#268 = ADVANCED_FACE ( 'NONE', ( #192 ), #119, .F. ) ;
#269 = DIRECTION ( 'NONE',  ( 1.000000000000000000, -2.220446049250312588E-16, 0.000000000000000000 ) ) ;
#270 = EDGE_CURVE ( 'NONE', #12, #202, #93, .T. ) ;
#271 = ORIENTED_EDGE ( 'NONE', *, *, #319, .F. ) ;
#272 = EDGE_LOOP ( 'NONE', ( #303, #181, #135 ) ) ;
#273 = DIRECTION ( 'NONE',  ( -0.7071067811865474617, -0.7071067811865474617, 0.000000000000000000 ) ) ;
#274 = AXIS2_PLACEMENT_3D ( 'NONE', #282, #161, #43 ) ;
#275 = LOCAL_TIME ( 11, 14, 36.00000000000000000, #54 ) ;
#276 = MANIFOLD_SOLID_BREP ( '¾µÏ', #286 ) ;
#277 = ORIENTED_EDGE ( 'NONE', *, *, #151, .T. ) ;
#278 = LOCAL_TIME ( 11, 14, 36.00000000000000000, #52 ) ;
#279 = CARTESIAN_POINT ( 'NONE',  ( 12.69999999999999929, 12.69999999999999929, -12.69999999999999929 ) ) ;
#280 = EDGE_LOOP ( 'NONE', ( #86, #31, #153, #177 ) ) ;
#281 = CARTESIAN_POINT ( 'NONE',  ( 0.000000000000000000, 0.000000000000000000, -12.69999999999999929 ) ) ;
#282 = CARTESIAN_POINT ( 'NONE',  ( 0.000000000000000000, 0.000000000000000000, 12.69999999999999929 ) ) ;
#283 = LINE ( 'NONE', #237, #175 ) ;
#284 = CARTESIAN_POINT ( 'NONE',  ( -12.69999999999999574, -12.69999999999999396, 12.69999999999999929 ) ) ;
#285 = EDGE_CURVE ( 'NONE', #259, #109, #138, .T. ) ;
#286 = CLOSED_SHELL ( 'NONE', ( #50, #288, #13, #210, #6 ) ) ;
#287 = LINE ( 'NONE', #70, #21 ) ;
#288 = ADVANCED_FACE ( 'NONE', ( #242 ), #23, .F. ) ;
#289 = ADVANCED_BREP_SHAPE_REPRESENTATION ( 'BK7-LPBSC-25.4-473', ( #68, #276, #74 ), #214 ) ;
#290 = DIRECTION ( 'NONE',  ( -0.7071067811865475727, -0.7071067811865475727, 0.000000000000000000 ) ) ;
#291 = PERSON_AND_ORGANIZATION_ROLE ( 'creator' ) ;
#292 = CALENDAR_DATE ( 2020, 22, 12 ) ;
#293 = FACE_OUTER_BOUND ( 'NONE', #272, .T. ) ;
#294 = EDGE_LOOP ( 'NONE', ( #65, #111, #219, #253 ) ) ;
#295 = APPROVAL_ROLE ( '' ) ;
#296 = ORIENTED_EDGE ( 'NONE', *, *, #285, .T. ) ;
#297 = DATE_AND_TIME ( #124, #278 ) ;
#298 = DIRECTION ( 'NONE',  ( 0.7071067811865475727, 0.7071067811865475727, 0.000000000000000000 ) ) ;
#299 = EDGE_CURVE ( 'NONE', #3, #12, #321, .T. ) ;
#300 = ORGANIZATION ( 'UNSPECIFIED', 'UNSPECIFIED', '' ) ;
#301 = EDGE_CURVE ( 'NONE', #109, #150, #99, .T. ) ;
#302 = VECTOR ( 'NONE', #188, 1000.000000000000000 ) ;
#303 = ORIENTED_EDGE ( 'NONE', *, *, #313, .T. ) ;
#304 = CARTESIAN_POINT ( 'NONE',  ( -12.69999999999999751, -12.69999999999999929, -12.69999999999999929 ) ) ;
#305 = EDGE_LOOP ( 'NONE', ( #41, #235, #5, #257 ) ) ;
#306 = ORIENTED_EDGE ( 'NONE', *, *, #270, .F. ) ;
#307 = VECTOR ( 'NONE', #37, 1000.000000000000000 ) ;
#308 = VERTEX_POINT ( 'NONE', #95 ) ;
#309 = APPROVAL_PERSON_ORGANIZATION ( #220, #208, #295 ) ;
#310 = PLANE ( 'NONE',  #187 ) ;
#311 = ORIENTED_EDGE ( 'NONE', *, *, #88, .T. ) ;
#312 = DIRECTION ( 'NONE',  ( 0.000000000000000000, -0.000000000000000000, 1.000000000000000000 ) ) ;
#313 = EDGE_CURVE ( 'NONE', #308, #202, #49, .T. ) ;
#314 = UNCERTAINTY_MEASURE_WITH_UNIT (LENGTH_MEASURE( 1.000000000000000082E-05 ), #317, 'distance_accuracy_value', 'NONE');
#315 = CARTESIAN_POINT ( 'NONE',  ( 12.69999999999999929, 12.69999999999999929, 12.69999999999999929 ) ) ;
#316 = VECTOR ( 'NONE', #263, 1000.000000000000000 ) ;
#317 =( LENGTH_UNIT ( ) NAMED_UNIT ( * ) SI_UNIT ( .MILLI., .METRE. ) );
#318 = DIRECTION ( 'NONE',  ( -0.000000000000000000, 1.000000000000000000, -0.000000000000000000 ) ) ;
#319 = EDGE_CURVE ( 'NONE', #171, #80, #287, .T. ) ;
#320 = VECTOR ( 'NONE', #269, 1000.000000000000000 ) ;
#321 = LINE ( 'NONE', #167, #121 ) ;
ENDSEC;
END-ISO-10303-21;
